ISO-10303-21;
HEADER;
/* Generated by software containing ST-Developer
 * from STEP Tools, Inc. (www.steptools.com) 
 */

FILE_DESCRIPTION(
/* description */ ('',
'CAx-IF Rec.Pracs.---Representation and Presentation of Product Manufa
cturing Information (PMI)---4.0---2014-10-13'),
/* implementation_level */ '2;1');

FILE_NAME(
/* name */ 'DBS-22_USB_Spacer.step',
/* time_stamp */ '2024-12-01T19:00:31-05:00',
/* author */ (''),
/* organization */ (''),
/* preprocessor_version */ 'ST-DEVELOPER v20',
/* originating_system */ 'Autodesk Translation Framework v13.20.0.188',

/* authorisation */ '');

FILE_SCHEMA (('AP242_MANAGED_MODEL_BASED_3D_ENGINEERING_MIM_LF { 1 0 10303 442 1 1 4 }'));
ENDSEC;

DATA;
#10=MECHANICAL_DESIGN_GEOMETRIC_PRESENTATION_REPRESENTATION('',(#17),#334);
#11=ITEM_DEFINED_TRANSFORMATION($,$,#191,#212);
#12=(
REPRESENTATION_RELATIONSHIP($,$,#348,#347)
REPRESENTATION_RELATIONSHIP_WITH_TRANSFORMATION(#11)
SHAPE_REPRESENTATION_RELATIONSHIP()
);
#13=CONTEXT_DEPENDENT_SHAPE_REPRESENTATION(#12,#346);
#14=NEXT_ASSEMBLY_USAGE_OCCURRENCE('DBS-22 USB Spacer:1',
'DBS-22 USB Spacer:1','DBS-22 USB Spacer:1',#350,#351,
'DBS-22 USB Spacer:1');
#15=SHAPE_REPRESENTATION_RELATIONSHIP('SRR','None',#348,#16);
#16=ADVANCED_BREP_SHAPE_REPRESENTATION('',(#18),#333);
#17=STYLED_ITEM('',(#361),#18);
#18=MANIFOLD_SOLID_BREP('Body1',#177);
#19=B_SPLINE_CURVE_WITH_KNOTS('',3,(#300,#301,#302,#303),.UNSPECIFIED.,
 .F.,.F.,(4,4),(0.,0.0931550234011543),.UNSPECIFIED.);
#20=B_SPLINE_CURVE_WITH_KNOTS('',3,(#304,#305,#306,#307),.UNSPECIFIED.,
 .F.,.F.,(4,4),(0.,0.0931550680531598),.UNSPECIFIED.);
#21=B_SPLINE_CURVE_WITH_KNOTS('',3,(#317,#318,#319,#320),.UNSPECIFIED.,
 .F.,.F.,(4,4),(0.,0.0931550680533374),.UNSPECIFIED.);
#22=B_SPLINE_CURVE_WITH_KNOTS('',3,(#322,#323,#324,#325),.UNSPECIFIED.,
 .F.,.F.,(4,4),(0.,0.0931550680534674),.UNSPECIFIED.);
#23=FACE_BOUND('',#46,.T.);
#24=FACE_BOUND('',#49,.T.);
#25=PLANE('',#198);
#26=PLANE('',#202);
#27=PLANE('',#206);
#28=PLANE('',#209);
#29=PLANE('',#211);
#30=CYLINDRICAL_SURFACE('',#196,0.247047244094488);
#31=CYLINDRICAL_SURFACE('',#207,0.78740157480315);
#32=FACE_OUTER_BOUND('',#43,.T.);
#33=FACE_OUTER_BOUND('',#44,.T.);
#34=FACE_OUTER_BOUND('',#45,.T.);
#35=FACE_OUTER_BOUND('',#47,.T.);
#36=FACE_OUTER_BOUND('',#48,.T.);
#37=FACE_OUTER_BOUND('',#50,.T.);
#38=FACE_OUTER_BOUND('',#51,.T.);
#39=FACE_OUTER_BOUND('',#52,.T.);
#40=FACE_OUTER_BOUND('',#53,.T.);
#41=FACE_OUTER_BOUND('',#54,.T.);
#42=FACE_OUTER_BOUND('',#55,.T.);
#43=EDGE_LOOP('',(#118,#119,#120,#121,#122));
#44=EDGE_LOOP('',(#123,#124,#125,#126,#127));
#45=EDGE_LOOP('',(#128,#129));
#46=EDGE_LOOP('',(#130));
#47=EDGE_LOOP('',(#131,#132,#133,#134));
#48=EDGE_LOOP('',(#135,#136));
#49=EDGE_LOOP('',(#137));
#50=EDGE_LOOP('',(#138,#139,#140,#141));
#51=EDGE_LOOP('',(#142,#143,#144,#145));
#52=EDGE_LOOP('',(#146,#147,#148,#149));
#53=EDGE_LOOP('',(#150,#151,#152,#153));
#54=EDGE_LOOP('',(#154,#155,#156,#157));
#55=EDGE_LOOP('',(#158,#159,#160,#161));
#56=LINE('',#274,#65);
#57=LINE('',#280,#66);
#58=LINE('',#286,#67);
#59=LINE('',#290,#68);
#60=LINE('',#294,#69);
#61=LINE('',#309,#70);
#62=LINE('',#312,#71);
#63=LINE('',#315,#72);
#64=LINE('',#321,#73);
#65=VECTOR('',#221,0.259547244094488);
#66=VECTOR('',#228,0.247047244094488);
#67=VECTOR('',#235,0.393700787401575);
#68=VECTOR('',#240,0.259547244094488);
#69=VECTOR('',#243,0.393700787401575);
#70=VECTOR('',#252,0.393700787401575);
#71=VECTOR('',#255,0.393700787401575);
#72=VECTOR('',#258,0.393700787401575);
#73=VECTOR('',#261,0.393700787401575);
#74=CIRCLE('',#193,0.272047244094488);
#75=CIRCLE('',#194,0.247047244094488);
#76=CIRCLE('',#195,0.247047244094488);
#77=CIRCLE('',#197,0.247047244094488);
#78=CIRCLE('',#199,0.76240157480315);
#79=CIRCLE('',#201,0.272047244094488);
#80=CIRCLE('',#203,0.76240157480315);
#81=CIRCLE('',#205,0.78740157480315);
#82=CIRCLE('',#208,0.78740157480315);
#83=VERTEX_POINT('',#271);
#84=VERTEX_POINT('',#273);
#85=VERTEX_POINT('',#275);
#86=VERTEX_POINT('',#279);
#87=VERTEX_POINT('',#283);
#88=VERTEX_POINT('',#284);
#89=VERTEX_POINT('',#288);
#90=VERTEX_POINT('',#292);
#91=VERTEX_POINT('',#293);
#92=VERTEX_POINT('',#297);
#93=VERTEX_POINT('',#298);
#94=VERTEX_POINT('',#311);
#95=VERTEX_POINT('',#313);
#96=EDGE_CURVE('',#83,#83,#74,.T.);
#97=EDGE_CURVE('',#83,#84,#56,.T.);
#98=EDGE_CURVE('',#84,#85,#75,.T.);
#99=EDGE_CURVE('',#85,#84,#76,.T.);
#100=EDGE_CURVE('',#85,#86,#57,.T.);
#101=EDGE_CURVE('',#86,#86,#77,.T.);
#102=EDGE_CURVE('',#87,#88,#78,.T.);
#103=EDGE_CURVE('',#88,#87,#58,.T.);
#104=EDGE_CURVE('',#89,#89,#79,.T.);
#105=EDGE_CURVE('',#89,#86,#59,.T.);
#106=EDGE_CURVE('',#90,#91,#60,.T.);
#107=EDGE_CURVE('',#91,#90,#80,.T.);
#108=EDGE_CURVE('',#92,#93,#81,.T.);
#109=EDGE_CURVE('',#93,#87,#19,.T.);
#110=EDGE_CURVE('',#88,#92,#20,.T.);
#111=EDGE_CURVE('',#93,#92,#61,.T.);
#112=EDGE_CURVE('',#92,#94,#62,.T.);
#113=EDGE_CURVE('',#95,#94,#82,.T.);
#114=EDGE_CURVE('',#95,#93,#63,.T.);
#115=EDGE_CURVE('',#91,#94,#21,.T.);
#116=EDGE_CURVE('',#94,#95,#64,.T.);
#117=EDGE_CURVE('',#90,#95,#22,.T.);
#118=ORIENTED_EDGE('',*,*,#96,.T.);
#119=ORIENTED_EDGE('',*,*,#97,.T.);
#120=ORIENTED_EDGE('',*,*,#98,.T.);
#121=ORIENTED_EDGE('',*,*,#99,.T.);
#122=ORIENTED_EDGE('',*,*,#97,.F.);
#123=ORIENTED_EDGE('',*,*,#98,.F.);
#124=ORIENTED_EDGE('',*,*,#99,.F.);
#125=ORIENTED_EDGE('',*,*,#100,.T.);
#126=ORIENTED_EDGE('',*,*,#101,.F.);
#127=ORIENTED_EDGE('',*,*,#100,.F.);
#128=ORIENTED_EDGE('',*,*,#102,.F.);
#129=ORIENTED_EDGE('',*,*,#103,.F.);
#130=ORIENTED_EDGE('',*,*,#96,.F.);
#131=ORIENTED_EDGE('',*,*,#104,.T.);
#132=ORIENTED_EDGE('',*,*,#105,.T.);
#133=ORIENTED_EDGE('',*,*,#101,.T.);
#134=ORIENTED_EDGE('',*,*,#105,.F.);
#135=ORIENTED_EDGE('',*,*,#106,.F.);
#136=ORIENTED_EDGE('',*,*,#107,.F.);
#137=ORIENTED_EDGE('',*,*,#104,.F.);
#138=ORIENTED_EDGE('',*,*,#108,.T.);
#139=ORIENTED_EDGE('',*,*,#109,.T.);
#140=ORIENTED_EDGE('',*,*,#102,.T.);
#141=ORIENTED_EDGE('',*,*,#110,.T.);
#142=ORIENTED_EDGE('',*,*,#103,.T.);
#143=ORIENTED_EDGE('',*,*,#109,.F.);
#144=ORIENTED_EDGE('',*,*,#111,.T.);
#145=ORIENTED_EDGE('',*,*,#110,.F.);
#146=ORIENTED_EDGE('',*,*,#108,.F.);
#147=ORIENTED_EDGE('',*,*,#112,.T.);
#148=ORIENTED_EDGE('',*,*,#113,.F.);
#149=ORIENTED_EDGE('',*,*,#114,.T.);
#150=ORIENTED_EDGE('',*,*,#106,.T.);
#151=ORIENTED_EDGE('',*,*,#115,.T.);
#152=ORIENTED_EDGE('',*,*,#116,.T.);
#153=ORIENTED_EDGE('',*,*,#117,.F.);
#154=ORIENTED_EDGE('',*,*,#113,.T.);
#155=ORIENTED_EDGE('',*,*,#115,.F.);
#156=ORIENTED_EDGE('',*,*,#107,.T.);
#157=ORIENTED_EDGE('',*,*,#117,.T.);
#158=ORIENTED_EDGE('',*,*,#111,.F.);
#159=ORIENTED_EDGE('',*,*,#114,.F.);
#160=ORIENTED_EDGE('',*,*,#116,.F.);
#161=ORIENTED_EDGE('',*,*,#112,.F.);
#162=CONICAL_SURFACE('',#192,0.259547244094488,0.785398163397446);
#163=CONICAL_SURFACE('',#200,0.259547244094488,0.785398163397446);
#164=CONICAL_SURFACE('',#204,0.77490157480315,0.785398163397447);
#165=CONICAL_SURFACE('',#210,0.77490157480315,0.785398163397445);
#166=ADVANCED_FACE('',(#32),#162,.F.);
#167=ADVANCED_FACE('',(#33),#30,.F.);
#168=ADVANCED_FACE('',(#34,#23),#25,.F.);
#169=ADVANCED_FACE('',(#35),#163,.F.);
#170=ADVANCED_FACE('',(#36,#24),#26,.T.);
#171=ADVANCED_FACE('',(#37),#164,.T.);
#172=ADVANCED_FACE('',(#38),#27,.T.);
#173=ADVANCED_FACE('',(#39),#31,.T.);
#174=ADVANCED_FACE('',(#40),#28,.T.);
#175=ADVANCED_FACE('',(#41),#165,.T.);
#176=ADVANCED_FACE('',(#42),#29,.F.);
#177=CLOSED_SHELL('',(#166,#167,#168,#169,#170,#171,#172,#173,#174,#175,
#176));
#178=DERIVED_UNIT_ELEMENT(#180,1.);
#179=DERIVED_UNIT_ELEMENT(#338,-3.);
#180=(
MASS_UNIT()
NAMED_UNIT(*)
SI_UNIT(.KILO.,.GRAM.)
);
#181=DERIVED_UNIT((#178,#179));
#182=MEASURE_REPRESENTATION_ITEM('density measure',
POSITIVE_RATIO_MEASURE(800.),#181);
#183=PROPERTY_DEFINITION_REPRESENTATION(#188,#185);
#184=PROPERTY_DEFINITION_REPRESENTATION(#189,#186);
#185=REPRESENTATION('material name',(#187),#333);
#186=REPRESENTATION('density',(#182),#333);
#187=DESCRIPTIVE_REPRESENTATION_ITEM('MDF Medium Density Fiberboard',
'MDF Medium Density Fiberboard');
#188=PROPERTY_DEFINITION('material property','material name',#351);
#189=PROPERTY_DEFINITION('material property','density of part',#351);
#190=AXIS2_PLACEMENT_3D('',#268,#213,#214);
#191=AXIS2_PLACEMENT_3D('',#269,#215,#216);
#192=AXIS2_PLACEMENT_3D('',#270,#217,#218);
#193=AXIS2_PLACEMENT_3D('',#272,#219,#220);
#194=AXIS2_PLACEMENT_3D('',#276,#222,#223);
#195=AXIS2_PLACEMENT_3D('',#277,#224,#225);
#196=AXIS2_PLACEMENT_3D('',#278,#226,#227);
#197=AXIS2_PLACEMENT_3D('',#281,#229,#230);
#198=AXIS2_PLACEMENT_3D('',#282,#231,#232);
#199=AXIS2_PLACEMENT_3D('',#285,#233,#234);
#200=AXIS2_PLACEMENT_3D('',#287,#236,#237);
#201=AXIS2_PLACEMENT_3D('',#289,#238,#239);
#202=AXIS2_PLACEMENT_3D('',#291,#241,#242);
#203=AXIS2_PLACEMENT_3D('',#295,#244,#245);
#204=AXIS2_PLACEMENT_3D('',#296,#246,#247);
#205=AXIS2_PLACEMENT_3D('',#299,#248,#249);
#206=AXIS2_PLACEMENT_3D('',#308,#250,#251);
#207=AXIS2_PLACEMENT_3D('',#310,#253,#254);
#208=AXIS2_PLACEMENT_3D('',#314,#256,#257);
#209=AXIS2_PLACEMENT_3D('',#316,#259,#260);
#210=AXIS2_PLACEMENT_3D('',#326,#262,#263);
#211=AXIS2_PLACEMENT_3D('',#327,#264,#265);
#212=AXIS2_PLACEMENT_3D('',#328,#266,#267);
#213=DIRECTION('axis',(0.,0.,1.));
#214=DIRECTION('refdir',(1.,0.,0.));
#215=DIRECTION('axis',(0.,0.,1.));
#216=DIRECTION('refdir',(1.,0.,0.));
#217=DIRECTION('center_axis',(0.,0.,-1.));
#218=DIRECTION('ref_axis',(1.,0.,0.));
#219=DIRECTION('center_axis',(0.,0.,-1.));
#220=DIRECTION('ref_axis',(1.,0.,0.));
#221=DIRECTION('',(0.707106781186546,-8.65956056235491E-17,0.707106781186549));
#222=DIRECTION('center_axis',(0.,0.,1.));
#223=DIRECTION('ref_axis',(1.,0.,0.));
#224=DIRECTION('center_axis',(0.,0.,1.));
#225=DIRECTION('ref_axis',(1.,0.,0.));
#226=DIRECTION('center_axis',(0.,0.,1.));
#227=DIRECTION('ref_axis',(-1.,0.,0.));
#228=DIRECTION('',(0.,0.,1.));
#229=DIRECTION('center_axis',(0.,0.,-1.));
#230=DIRECTION('ref_axis',(-1.,0.,0.));
#231=DIRECTION('center_axis',(0.,0.,1.));
#232=DIRECTION('ref_axis',(1.,0.,0.));
#233=DIRECTION('center_axis',(0.,0.,1.));
#234=DIRECTION('ref_axis',(-1.,0.,0.));
#235=DIRECTION('',(0.,1.,0.));
#236=DIRECTION('center_axis',(0.,0.,1.));
#237=DIRECTION('ref_axis',(-1.,0.,0.));
#238=DIRECTION('center_axis',(0.,0.,1.));
#239=DIRECTION('ref_axis',(-1.,0.,0.));
#240=DIRECTION('',(-0.707106781186546,-8.65956056235491E-17,-0.707106781186549));
#241=DIRECTION('center_axis',(0.,0.,1.));
#242=DIRECTION('ref_axis',(1.,0.,0.));
#243=DIRECTION('',(0.,-1.,0.));
#244=DIRECTION('center_axis',(0.,0.,-1.));
#245=DIRECTION('ref_axis',(-1.,0.,0.));
#246=DIRECTION('center_axis',(0.,0.,1.));
#247=DIRECTION('ref_axis',(-1.,0.,0.));
#248=DIRECTION('center_axis',(0.,0.,-1.));
#249=DIRECTION('ref_axis',(-1.,0.,0.));
#250=DIRECTION('center_axis',(0.707106781186549,0.,-0.707106781186546));
#251=DIRECTION('ref_axis',(-0.707106781186546,0.,-0.707106781186549));
#252=DIRECTION('',(0.,-1.,0.));
#253=DIRECTION('center_axis',(0.,0.,1.));
#254=DIRECTION('ref_axis',(-1.,1.22464679914735E-16,0.));
#255=DIRECTION('',(0.,0.,1.));
#256=DIRECTION('center_axis',(0.,0.,1.));
#257=DIRECTION('ref_axis',(-1.,0.,0.));
#258=DIRECTION('',(0.,0.,-1.));
#259=DIRECTION('center_axis',(0.707106781186554,0.,0.707106781186541));
#260=DIRECTION('ref_axis',(0.707106781186541,0.,-0.707106781186554));
#261=DIRECTION('',(0.,1.,0.));
#262=DIRECTION('center_axis',(0.,0.,-1.));
#263=DIRECTION('ref_axis',(-1.,0.,0.));
#264=DIRECTION('center_axis',(-1.,0.,0.));
#265=DIRECTION('ref_axis',(0.,1.,0.));
#266=DIRECTION('',(0.,0.,1.));
#267=DIRECTION('',(1.,0.,0.));
#268=CARTESIAN_POINT('',(0.,0.,0.));
#269=CARTESIAN_POINT('',(0.,0.,0.));
#270=CARTESIAN_POINT('Origin',(0.,0.,0.0125000000000001));
#271=CARTESIAN_POINT('',(-0.272047244094488,3.33161786697174E-17,0.));
#272=CARTESIAN_POINT('Origin',(0.,0.,0.));
#273=CARTESIAN_POINT('',(-0.247047244094488,-3.0254561671849E-17,0.0250000000000001));
#274=CARTESIAN_POINT('',(-0.259547244094488,3.17853701707832E-17,0.0125000000000001));
#275=CARTESIAN_POINT('',(0.247047244094488,3.0254561671849E-17,0.0250000000000001));
#276=CARTESIAN_POINT('Origin',(0.,0.,0.0250000000000001));
#277=CARTESIAN_POINT('Origin',(0.,0.,0.0250000000000001));
#278=CARTESIAN_POINT('Origin',(0.,0.,2.075));
#279=CARTESIAN_POINT('',(0.247047244094488,-3.0254561671849E-17,1.94350393700787));
#280=CARTESIAN_POINT('',(0.247047244094488,3.0254561671849E-17,2.075));
#281=CARTESIAN_POINT('Origin',(0.,0.,1.94350393700787));
#282=CARTESIAN_POINT('Origin',(0.,0.,0.));
#283=CARTESIAN_POINT('',(0.557340963969488,0.520218426378656,0.));
#284=CARTESIAN_POINT('',(0.557340963969488,-0.520218426378656,0.));
#285=CARTESIAN_POINT('Origin',(0.,0.,0.));
#286=CARTESIAN_POINT('',(0.557340963969488,-0.264990679876467,0.));
#287=CARTESIAN_POINT('Origin',(0.,0.,1.95600393700787));
#288=CARTESIAN_POINT('',(0.272047244094488,3.33161786697174E-17,1.96850393700787));
#289=CARTESIAN_POINT('Origin',(0.,0.,1.96850393700787));
#290=CARTESIAN_POINT('',(0.259547244094488,3.17853701707832E-17,1.95600393700787));
#291=CARTESIAN_POINT('Origin',(0.,0.,1.96850393700787));
#292=CARTESIAN_POINT('',(0.557340963969488,0.520218426378656,1.96850393700787));
#293=CARTESIAN_POINT('',(0.557340963969488,-0.520218426378656,1.96850393700787));
#294=CARTESIAN_POINT('',(0.557340963969488,-0.264990679876467,1.96850393700787));
#295=CARTESIAN_POINT('Origin',(0.,0.,1.96850393700787));
#296=CARTESIAN_POINT('Origin',(0.,0.,0.0125));
#297=CARTESIAN_POINT('',(0.582340963969488,-0.529981359752933,0.025));
#298=CARTESIAN_POINT('',(0.582340963969488,0.529981359752933,0.0250000000000001));
#299=CARTESIAN_POINT('Origin',(0.,0.,0.025));
#300=CARTESIAN_POINT('Ctrl Pts',(0.582340963969488,0.529981359752933,0.025));
#301=CARTESIAN_POINT('Ctrl Pts',(0.574002968957601,0.526755219212702,0.0166620049881135));
#302=CARTESIAN_POINT('Ctrl Pts',(0.565667985104342,0.523500786160151,0.00832702113485473));
#303=CARTESIAN_POINT('Ctrl Pts',(0.557340963969488,0.520218426378656,-4.37095678986282E-17));
#304=CARTESIAN_POINT('Ctrl Pts',(0.557340963969488,-0.520218426378656,-4.37095678986282E-17));
#305=CARTESIAN_POINT('Ctrl Pts',(0.565667985104342,-0.523500786160151,0.00832702113485472));
#306=CARTESIAN_POINT('Ctrl Pts',(0.574002968957601,-0.526755219212702,0.0166620049881135));
#307=CARTESIAN_POINT('Ctrl Pts',(0.582340963969488,-0.529981359752933,0.025));
#308=CARTESIAN_POINT('Origin',(0.569840963969488,-0.264990679876467,0.0125000000000001));
#309=CARTESIAN_POINT('',(0.582340963969488,-0.264990679876467,0.0250000000000001));
#310=CARTESIAN_POINT('Origin',(0.,0.,0.));
#311=CARTESIAN_POINT('',(0.582340963969488,-0.529981359752933,1.94350393700787));
#312=CARTESIAN_POINT('',(0.582340963969488,-0.529981359752933,0.));
#313=CARTESIAN_POINT('',(0.582340963969488,0.529981359752933,1.94350393700787));
#314=CARTESIAN_POINT('Origin',(0.,0.,1.94350393700787));
#315=CARTESIAN_POINT('',(0.582340963969488,0.529981359752933,0.));
#316=CARTESIAN_POINT('Origin',(0.569840963969488,-0.264990679876467,1.95600393700787));
#317=CARTESIAN_POINT('Ctrl Pts',(0.557340963969488,-0.520218426378656,1.96850393700787));
#318=CARTESIAN_POINT('Ctrl Pts',(0.565667985104358,-0.523500786160157,1.960176915873));
#319=CARTESIAN_POINT('Ctrl Pts',(0.574002968957634,-0.526755219212715,1.95184193201973));
#320=CARTESIAN_POINT('Ctrl Pts',(0.582340963969487,-0.529981359752933,1.94350393700787));
#321=CARTESIAN_POINT('',(0.582340963969488,-0.264990679876467,1.94350393700787));
#322=CARTESIAN_POINT('Ctrl Pts',(0.557340963969487,0.520218426378656,1.96850393700787));
#323=CARTESIAN_POINT('Ctrl Pts',(0.56566798510437,0.523500786160162,1.96017691587299));
#324=CARTESIAN_POINT('Ctrl Pts',(0.574002968957658,0.526755219212724,1.9518419320197));
#325=CARTESIAN_POINT('Ctrl Pts',(0.582340963969488,0.529981359752933,1.94350393700787));
#326=CARTESIAN_POINT('Origin',(0.,0.,1.95600393700787));
#327=CARTESIAN_POINT('Origin',(0.582340963969488,-0.529981359752933,1.96850393700787));
#328=CARTESIAN_POINT('',(0.,0.,0.));
#329=UNCERTAINTY_MEASURE_WITH_UNIT(LENGTH_MEASURE(0.000393700787401575),
#336,'DISTANCE_ACCURACY_VALUE',
'Maximum model space distance between geometric entities at asserted c
onnectivities');
#330=UNCERTAINTY_MEASURE_WITH_UNIT(LENGTH_MEASURE(0.000393700787401575),
#336,'DISTANCE_ACCURACY_VALUE',
'Maximum model space distance between geometric entities at asserted c
onnectivities');
#331=UNCERTAINTY_MEASURE_WITH_UNIT(LENGTH_MEASURE(0.000393700787401575),
#336,'DISTANCE_ACCURACY_VALUE',
'Maximum model space distance between geometric entities at asserted c
onnectivities');
#332=(
GEOMETRIC_REPRESENTATION_CONTEXT(3)
GLOBAL_UNCERTAINTY_ASSIGNED_CONTEXT((#329))
GLOBAL_UNIT_ASSIGNED_CONTEXT((#336,#340,#341))
REPRESENTATION_CONTEXT('','3D')
);
#333=(
GEOMETRIC_REPRESENTATION_CONTEXT(3)
GLOBAL_UNCERTAINTY_ASSIGNED_CONTEXT((#330))
GLOBAL_UNIT_ASSIGNED_CONTEXT((#336,#340,#341))
REPRESENTATION_CONTEXT('','3D')
);
#334=(
GEOMETRIC_REPRESENTATION_CONTEXT(3)
GLOBAL_UNCERTAINTY_ASSIGNED_CONTEXT((#331))
GLOBAL_UNIT_ASSIGNED_CONTEXT((#336,#340,#341))
REPRESENTATION_CONTEXT('','3D')
);
#335=DIMENSIONAL_EXPONENTS(1.,0.,0.,0.,0.,0.,0.);
#336=(
CONVERSION_BASED_UNIT('inch',#339)
LENGTH_UNIT()
NAMED_UNIT(#335)
);
#337=(
LENGTH_UNIT()
NAMED_UNIT(*)
SI_UNIT(.MILLI.,.METRE.)
);
#338=(
LENGTH_UNIT()
NAMED_UNIT(*)
SI_UNIT($,.METRE.)
);
#339=LENGTH_MEASURE_WITH_UNIT(LENGTH_MEASURE(25.4),#337);
#340=(
NAMED_UNIT(*)
PLANE_ANGLE_UNIT()
SI_UNIT($,.RADIAN.)
);
#341=(
NAMED_UNIT(*)
SI_UNIT($,.STERADIAN.)
SOLID_ANGLE_UNIT()
);
#342=SHAPE_DEFINITION_REPRESENTATION(#344,#347);
#343=SHAPE_DEFINITION_REPRESENTATION(#345,#348);
#344=PRODUCT_DEFINITION_SHAPE('',$,#350);
#345=PRODUCT_DEFINITION_SHAPE('',$,#351);
#346=PRODUCT_DEFINITION_SHAPE($,$,#14);
#347=SHAPE_REPRESENTATION('',(#190,#212),#332);
#348=SHAPE_REPRESENTATION('',(#191),#333);
#349=PRODUCT_DEFINITION_CONTEXT('part definition',#357,'design');
#350=PRODUCT_DEFINITION('DBS-22 USB Spacer','DBS-22 USB Spacer v2',#352,
#349);
#351=PRODUCT_DEFINITION('DBS-22 USB Spacer_1','DBS-22 USB Spacer',#353,
#349);
#352=PRODUCT_DEFINITION_FORMATION('',$,#359);
#353=PRODUCT_DEFINITION_FORMATION('',$,#360);
#354=PRODUCT_RELATED_PRODUCT_CATEGORY('DBS-22 USB Spacer v2',
'DBS-22 USB Spacer v2',(#359));
#355=PRODUCT_RELATED_PRODUCT_CATEGORY('DBS-22 USB Spacer',
'DBS-22 USB Spacer',(#360));
#356=APPLICATION_PROTOCOL_DEFINITION('international standard',
'ap242_managed_model_based_3d_engineering',2011,#357);
#357=APPLICATION_CONTEXT('Managed model based 3d engineering');
#358=PRODUCT_CONTEXT('part definition',#357,'mechanical');
#359=PRODUCT('DBS-22 USB Spacer','DBS-22 USB Spacer v2',$,(#358));
#360=PRODUCT('DBS-22 USB Spacer_1','DBS-22 USB Spacer',$,(#358));
#361=PRESENTATION_STYLE_ASSIGNMENT((#362));
#362=SURFACE_STYLE_USAGE(.BOTH.,#363);
#363=SURFACE_SIDE_STYLE('',(#364));
#364=SURFACE_STYLE_FILL_AREA(#365);
#365=FILL_AREA_STYLE('Surface - Matte',(#366));
#366=FILL_AREA_STYLE_COLOUR('Surface - Matte',#367);
#367=COLOUR_RGB('Surface - Matte',0.701960784313725,0.701960784313725,0.701960784313725);
ENDSEC;
END-ISO-10303-21;
